Friday, 1 December 2017

Harivarasanam Viswamohanam

guitar tabs for harivarasanam

Harivarasanam Viswamohanam
B ------------------------------------------8---------------- B
G -----5--7--7--7--7--9---------------9-----9--7--7------ G

Harithatheswaram Aradhyapadukam
G -----5--7--9--7--9--7-5-----------2-2--9--7-7—7---- G

Arivi Mardhanam Nithya Narthanam
B --------8-8-8--8--8-8--------------------8--8—8---8--- B
G -----9-------------------9—7----------9------------------ G

Hariharathmajam Devamasrayee
E ------------------8----------------------------------------- E
B ------8--10--10-----10--8------------8------------------- B
G --9--------------------------9------------9—7—7---7---- G

Saranamayyappa Swami Saranam Ayyappa
B -----------------------------------------8-----8------------- B
G ----5--7--7-7---7-------------9--9------9-----9-7—7-7-- G

Saranamayyappa Swami Saranamayyappa
B ----10--8--10--8-------------------------------------------- B
G -------------------9--9---------9—9-----5--7-9--9-7-7--- G

Saturday, 23 September 2017

Jeena Yahan Marna Yahan Guitar Tabs(Single String)




Jeena Yahan Marna Yahan
e| 0-5-7-8--7-4-5-7

Iske Siva Jaana Kahan
e| 0-4-5-7--8-7-4-5

Ji Chahe Jab Humko Awaaz Do
e| 12-13-10-12-12--12-12-13-10-12

Hum Hain Wahin Hum Thhe Jahan
e| 10-7-10-8-7-4-7-5

Apne Yahin Dono Jahan
e| 0-5-7-8--7-4-5-7

Iske Siva Jana Kahan
e|  0-4-5-7--8-7-4-5

Jeena Yahan Marna Yahan, Iske Siva Jaana Kahan
e| 0-5-7-8--7-4-5-7--- 0-4-5-7--8-7-4-5


Para 2

Yeh Mera Geet Jeevan Sangeet
e| 9-9-7-9--10-10-9-10

Kal Bhi Koi Dohrayega
e| 13-13-12-13-13--13-12-10-8-12

Jag Ko Hasane Bahrupiya
e| 9-9-7-9--10-10-9-10

Roop Badal Phir Aayega
e| 13-13-12-13-13-17-17-12-12-12

Swarg Yahin Nark Yahan
e| 0-5-7-8--7-4-5-7

Iske Siva Jana Kahan
e| 0-4-5-7--8-7-4-5

Jeena Yahan Marna Yahan, Iske Siva Jaana Kahan
e| 0-5-7-8--7-4-5-7--0-4-5-7--8-7-4-5

Monday, 17 July 2017

o sathi re

E|-----------------------------------------------------|
B|-----7---9---11-----9--9---7--9---9---11--9--7-------|
G|-8----------------------------------------------8----|
d# f# g# a# , g# g# f# g# g# a# g# f# d#
O Saathi re , tere bina bhi kya jeena

E|-----------------------------------------------------|
B|----9--9---7--9---9---11---9--7-7--------------------|
G|-----------------------------------------------------|
g# g# f# g# g# a# g# f# f#
tere bina bhi kya jeena

--------------------------------------------------------------------------------

E|--9---9----9----9/11--9------------------------------|
B|--------------------------11-------------------------|
G|-----------------------------------------------------|
c# c# c# c#/d# c# a#
phoolon mein kaliyon mein


E|---9--9-----9----9/11--9-----------------------------|
B|---------------------------11------------------------|
G|-----------------------------------------------------|
c# c# c# c#/d# c# a#
sapno ki galiyon mein

E|-----------------------------------------------------|
B|--10-10--9-10---9-----7--9---10----------------------|
G|-----------------------------------------------------|
a a g# a g# f# g# a
tere bina kuch kahin na
--------------------------------------------------------------------------------

E|-----------------------------------------------------|
B|---9--9---7--9---9---11--9--7------------------------|
G|-------------------------------8---------------------|
g# g# f# g# g# a# g# f# d#
tere bina bhi kya jeena

E|-----------------------------------------------------|
B|----9--9---7--9---9---11---9--7-7--------------------|
G|-----------------------------------------------------|
g# g# f# g# g# a# g# f# f#
tere bina bhi kya jeena
--------------------------------------------------------------------------------
O Saathi re, tere bina bhi kya jeena
tere bina bhi kya jeena

Maha Ganapathim Manasa Smaraami

E---------------------------9--10-----10--9-----------------------------E
B------------7—8--10-------------------------10—8—7--8---------------B
G—7--10-----------------------------------------------------10--7----- G



-----------Maha-------Ganapathim----------Manasa------Smaraami-----
B----------8--10----8--7--8----------------------------------8\7\8---- B
G--------------------------------107------7--7--7------7--7----------- G

-------------Vasishta-------Vama--Devaadhi-----------Vandita---------
E---------------10--9------------------------------------------------- E
B---------10----------------10-8-------------------------------7----- B
G------------------------------------10-10--7---------7\6--7--------- G

------Maha-----Devasuthm--------------Guruguha nutham-------
E----10------------10—10-10--------10--13---10--9-------10--- E
B---------10--10-------------------------- -----------10-------- B





----------Mara------- Koti ----- Prakasham ---Shantham---
E--------10--14\15----13-10-----910--------------------- E
B--------------------------------------10-----78--------- B
G-------------------------------------------------10----- G

------------Maha ---- Kaavya------ Natakaadipriyam--------
B-------------10-----878--10-------87--8------------------ B
G---------7--------------------------------10-7--7---7---- G

----------Mooshika-------Vaahana-------Modhakapriyam--------
E-----------------------10-------------------------------------- E
B----------------------------10--8--------7810--8--10--10------ B
G-------10--7--7------------------------------------------------ G

Tuesday, 6 June 2017

Nee madhu pakaroo

Nee madhu pakaroo Malayalam Song.

E –0——0-0——–0-0–
B —–1-1—–3–1-1—–3
Nee Madhu pakaroo, malar choriyoo
E —–3-1-0—0-1–0—–
B -3-3——-3————-
Anuraga pournamiye
E –0——0-0——–0-0—
B —–1-1—–3–1-1—–3
Nee Madhu pakaroo, malar choriyoo
E —–3-1-0—0-1–0——
B -3-3——-3—————
Anuraaga pournamiye.
E -0-8-8-8–3-3-3-3–3–
Nee maayalle, marayalle
E -1-1-1-0—1–0—
B ————3———
Neela nilavoliye

Friday, 24 February 2017

Nenjukkul Peythidum Maamazhai

Intro Tabs
E---------------------------------------|
B-------------------------------5--5----|   
G--4--6--7--9--7/9--6--4----------------|
D-------------------------7--7----------|
A---------------------------------------|
E---------------------------------------|

E------------------------------------------|
B------------------------------------------|   
G--4--6--7--9--7/9--6--4-----------6--4----|
D-------------------------7--7--7----------|
A------------------------------------------|
E------------------------------------------|




e:    5-5-7-7--7-5-7-9-5
b:    ---------------------------
g:    ---------------------------

e:    2-2-5-5--5-7-5-2-0
b:    ---------------------------
g:    ---------------------------

e:    0-0-4-4-4-5--4-5-7---
b:    ---------------------------
g:    ---------------------------


e:    4-4--5-7-7-5-------
b:    ---------------------------
g:    ---------------------------

e:    5-5-7-7--7-5-7-9-5
b:    ---------------------------
g:    ---------------------------

e:    2-2-5-5--5-7-5-2-0
b:    ---------------------------
g:    ---------------------------

e:    0-0-4-4-4-5-2-4-5-7
b:    ---------------------------
g:    ---------------------------

e:    4-4-5-7-5-9-7
b:    ---------------------------
g:    ---------------------------

e:    7-9-10-12-10-9-7-5-7-12-12
b:    -----------------------------------------
g:    -----------------------------------------

e:    7-9-10-12-10-9-7-5-5-7-9-5
b:    ----------------------------------------
g:    ----------------------------------------

e:    7-9-10-12-10-9-7-5-7-12-12
b:    -----------------------------------------
g:    -----------------------------------------

e:    7-9-10-12-10-9-7-5-5-7-9-5
b:    ----------------------------------------
g:    ---------------------------------------- 

para:

e:    5-5-4-5---2-5-2-0-
b:    --------------------------
g:    --------------------------

e:    5-5-4-5---2-5-2-0-
b:    --------------------------
g:    --------------------------

e:    5-5-4-5---2-5-2-0-
b:    ---------------------------
g:    ---------------------------

e:    5-5-4-5---2-5-2-0-
b:    --------------------------
g:    --------------------------

e:    7-9-7-9-9-9-9----7-9-12-9-7-7-7-
b:    ---------------------------
g:    ---------------------------

e:    7-9-7-9-9-9-9----7-9-12-9-7-7-7-
b:    ---------------------------
g:    ---------------------------

e:    7-7-5-7----4-5-7-5-5
b:    ---------------------------
g:    ---------------------------

e:    7-7-5-7----4-5-7-5-5
b:    ---------------------------
g:    ---------------------------

e:    7-9-10-12-10-9-7-5-7-12-12
b:    -----------------------------------------
g:    -----------------------------------------

e:    7-9-10-12-10-9-7-5-5-7-9-5
b:    ----------------------------------------
g:    ----------------------------------------

e:    7-9-10-12-10-9-7-5-7-12-12
b:    -----------------------------------------
g:    -----------------------------------------

e:    7-9-10-12-10-9-7-5-5-7-9-5
b:    ----------------------------------------
g:    ----------------------------------------